ISO-10303-21;
HEADER;
FILE_DESCRIPTION(('CATIA V5 STEP Exchange'),'2;1');

FILE_NAME('\\\\fs1-enseig-v\\bureau$\\ebourgea\\Bureau\\TD et TP PROJET\\Semestre 1\\TP CATIA ERIC\\VERIN FESTO\\CATIA R19\\Anneau elastique.stp','2018-10-01T09:18:28+00:00',('none'),('none'),'CATIA Version 5 Release 19 SP 6 (IN-10)','CATIA V5 STEP AP203','none');

FILE_SCHEMA(('CONFIG_CONTROL_DESIGN'));

ENDSEC;
/* file written by CATIA V5R19 */
DATA;
#5=PRODUCT('Anneau elastique','','',(#2)) ;
#1=APPLICATION_CONTEXT('configuration controlled 3D design of mechanical parts and assemblies') ;
#14=PRODUCT_DEFINITION('',' ',#6,#3) ;
#16=SECURITY_CLASSIFICATION(' ',' ',#15) ;
#15=SECURITY_CLASSIFICATION_LEVEL('unclassified') ;
#47=CARTESIAN_POINT(' ',(0.,0.,0.)) ;
#52=CARTESIAN_POINT('Axis2P3D Location',(-1.40275478363,-90.9737243652,22.7071067812)) ;
#57=CARTESIAN_POINT('Line Origine',(9.32403371121,-90.9737243652,22.0071067812)) ;
#61=CARTESIAN_POINT('Vertex',(9.32403371121,-90.9737243652,22.7071067812)) ;
#63=CARTESIAN_POINT('Vertex',(9.32403371121,-90.9737243652,21.3071067812)) ;
#66=CARTESIAN_POINT('Line Origine',(10.3704998673,-90.9737243652,21.3071067812)) ;
#70=CARTESIAN_POINT('Vertex',(11.4169660234,-90.9737243652,21.3071067812)) ;
#73=CARTESIAN_POINT('Line Origine',(11.4169660234,-90.9737243652,22.0071067812)) ;
#77=CARTESIAN_POINT('Vertex',(11.4169660234,-90.9737243652,22.7071067812)) ;
#80=CARTESIAN_POINT('Line Origine',(10.3704998673,-90.9737243652,22.7071067812)) ;
#92=CARTESIAN_POINT('Axis2P3D Location',(0.,0.,22.7071067812)) ;
#97=CARTESIAN_POINT('Axis2P3D Location',(26.615650177,-95.9737243652,22.7071067812)) ;
#101=CARTESIAN_POINT('Vertex',(42.615650177,-95.9737243652,22.7071067812)) ;
#104=CARTESIAN_POINT('Axis2P3D Location',(26.615650177,-95.9737243652,22.7071067812)) ;
#108=CARTESIAN_POINT('Vertex',(11.4169660234,-100.973724365,22.7071067812)) ;
#111=CARTESIAN_POINT('Line Origine',(10.3704998673,-100.973724365,22.7071067812)) ;
#115=CARTESIAN_POINT('Vertex',(9.32403371121,-100.973724365,22.7071067812)) ;
#118=CARTESIAN_POINT('Axis2P3D Location',(26.615650177,-95.9737243652,22.7071067812)) ;
#122=CARTESIAN_POINT('Vertex',(44.615650177,-95.9737243652,22.7071067812)) ;
#125=CARTESIAN_POINT('Axis2P3D Location',(26.615650177,-95.9737243652,22.7071067812)) ;
#139=CARTESIAN_POINT('Axis2P3D Location',(26.615650177,-95.9737243652,22.0071067812)) ;
#144=CARTESIAN_POINT('Line Origine',(44.615650177,-95.9737243652,22.0071067812)) ;
#148=CARTESIAN_POINT('Vertex',(44.615650177,-95.9737243652,21.3071067812)) ;
#151=CARTESIAN_POINT('Axis2P3D Location',(26.615650177,-95.9737243652,21.3071067812)) ;
#163=CARTESIAN_POINT('Axis2P3D Location',(26.615650177,-95.9737243652,22.0071067812)) ;
#168=CARTESIAN_POINT('Line Origine',(11.4169660234,-100.973724365,22.0071067812)) ;
#172=CARTESIAN_POINT('Vertex',(11.4169660234,-100.973724365,21.3071067812)) ;
#175=CARTESIAN_POINT('Line Origine',(42.615650177,-95.9737243652,22.0071067812)) ;
#179=CARTESIAN_POINT('Vertex',(42.615650177,-95.9737243652,21.3071067812)) ;
#182=CARTESIAN_POINT('Axis2P3D Location',(26.615650177,-95.9737243652,21.3071067812)) ;
#194=CARTESIAN_POINT('Axis2P3D Location',(20.591293335,-100.973724365,22.7071067812)) ;
#199=CARTESIAN_POINT('Line Origine',(10.3704998673,-100.973724365,21.3071067812)) ;
#203=CARTESIAN_POINT('Vertex',(9.32403371121,-100.973724365,21.3071067812)) ;
#206=CARTESIAN_POINT('Line Origine',(9.32403371121,-100.973724365,22.0071067812)) ;
#218=CARTESIAN_POINT('Axis2P3D Location',(26.615650177,-95.9737243652,21.3071067812)) ;
#230=CARTESIAN_POINT('Axis2P3D Location',(0.,0.,21.3071067812)) ;
#235=CARTESIAN_POINT('Axis2P3D Location',(26.615650177,-95.9737243652,21.3071067812)) ;
#53=DIRECTION('Axis2P3D Direction',(-0.,1.,0.)) ;
#54=DIRECTION('Axis2P3D XDirection',(1.,0.,0.)) ;
#58=DIRECTION('Vector Direction',(0.,0.,-1.)) ;
#67=DIRECTION('Vector Direction',(-1.,0.,0.)) ;
#74=DIRECTION('Vector Direction',(0.,0.,-1.)) ;
#81=DIRECTION('Vector Direction',(1.,0.,0.)) ;
#93=DIRECTION('Axis2P3D Direction',(0.,0.,-1.)) ;
#94=DIRECTION('Axis2P3D XDirection',(1.,0.,0.)) ;
#98=DIRECTION('Axis2P3D Direction',(0.,0.,-1.)) ;
#105=DIRECTION('Axis2P3D Direction',(0.,0.,-1.)) ;
#112=DIRECTION('Vector Direction',(-1.,0.,0.)) ;
#119=DIRECTION('Axis2P3D Direction',(0.,0.,-1.)) ;
#126=DIRECTION('Axis2P3D Direction',(0.,0.,-1.)) ;
#140=DIRECTION('Axis2P3D Direction',(0.,0.,-1.)) ;
#141=DIRECTION('Axis2P3D XDirection',(1.,0.,0.)) ;
#145=DIRECTION('Vector Direction',(0.,0.,-1.)) ;
#152=DIRECTION('Axis2P3D Direction',(0.,0.,-1.)) ;
#164=DIRECTION('Axis2P3D Direction',(0.,0.,-1.)) ;
#165=DIRECTION('Axis2P3D XDirection',(1.,0.,0.)) ;
#169=DIRECTION('Vector Direction',(0.,0.,-1.)) ;
#176=DIRECTION('Vector Direction',(0.,0.,-1.)) ;
#183=DIRECTION('Axis2P3D Direction',(0.,0.,-1.)) ;
#195=DIRECTION('Axis2P3D Direction',(-0.,-1.,-0.)) ;
#196=DIRECTION('Axis2P3D XDirection',(-1.,0.,0.)) ;
#200=DIRECTION('Vector Direction',(-1.,0.,0.)) ;
#207=DIRECTION('Vector Direction',(0.,0.,-1.)) ;
#219=DIRECTION('Axis2P3D Direction',(0.,0.,-1.)) ;
#231=DIRECTION('Axis2P3D Direction',(0.,0.,-1.)) ;
#232=DIRECTION('Axis2P3D XDirection',(1.,0.,0.)) ;
#236=DIRECTION('Axis2P3D Direction',(0.,0.,-1.)) ;
#48=AXIS2_PLACEMENT_3D(' ',#47,$,$) ;
#55=AXIS2_PLACEMENT_3D('Plane Axis2P3D',#52,#53,#54) ;
#95=AXIS2_PLACEMENT_3D('Plane Axis2P3D',#92,#93,#94) ;
#99=AXIS2_PLACEMENT_3D('Circle Axis2P3D',#97,#98,$) ;
#106=AXIS2_PLACEMENT_3D('Circle Axis2P3D',#104,#105,$) ;
#120=AXIS2_PLACEMENT_3D('Circle Axis2P3D',#118,#119,$) ;
#127=AXIS2_PLACEMENT_3D('Circle Axis2P3D',#125,#126,$) ;
#142=AXIS2_PLACEMENT_3D('Cylinder Axis2P3D',#139,#140,#141) ;
#153=AXIS2_PLACEMENT_3D('Circle Axis2P3D',#151,#152,$) ;
#166=AXIS2_PLACEMENT_3D('Cylinder Axis2P3D',#163,#164,#165) ;
#184=AXIS2_PLACEMENT_3D('Circle Axis2P3D',#182,#183,$) ;
#197=AXIS2_PLACEMENT_3D('Plane Axis2P3D',#194,#195,#196) ;
#220=AXIS2_PLACEMENT_3D('Circle Axis2P3D',#218,#219,$) ;
#233=AXIS2_PLACEMENT_3D('Plane Axis2P3D',#230,#231,#232) ;
#237=AXIS2_PLACEMENT_3D('Circle Axis2P3D',#235,#236,$) ;
#40=PRODUCT_DEFINITION_SHAPE(' ',' ',#14) ;
#31=APPROVAL_PERSON_ORGANIZATION(#25,#21,#19) ;
#25=PERSON_AND_ORGANIZATION(#22,#23) ;
#22=PERSON(' ',' ',' ',$,$,$) ;
#23=ORGANIZATION(' ',' ',' ') ;
#21=APPROVAL(#20,' ') ;
#20=APPROVAL_STATUS('not_yet_approved') ;
#19=APPROVAL_ROLE('APPROVER') ;
#13=DATE_AND_TIME(#11,#12) ;
#12=LOCAL_TIME(11,18,28.,#10) ;
#10=COORDINATED_UNIVERSAL_TIME_OFFSET(0,0,.AHEAD.) ;
#86=ORIENTED_EDGE('',*,*,#65,.T.) ;
#87=ORIENTED_EDGE('',*,*,#72,.F.) ;
#88=ORIENTED_EDGE('',*,*,#79,.F.) ;
#89=ORIENTED_EDGE('',*,*,#84,.T.) ;
#131=ORIENTED_EDGE('',*,*,#84,.F.) ;
#132=ORIENTED_EDGE('',*,*,#103,.T.) ;
#133=ORIENTED_EDGE('',*,*,#110,.T.) ;
#134=ORIENTED_EDGE('',*,*,#117,.F.) ;
#135=ORIENTED_EDGE('',*,*,#124,.F.) ;
#136=ORIENTED_EDGE('',*,*,#129,.F.) ;
#157=ORIENTED_EDGE('',*,*,#65,.F.) ;
#158=ORIENTED_EDGE('',*,*,#129,.T.) ;
#159=ORIENTED_EDGE('',*,*,#150,.T.) ;
#160=ORIENTED_EDGE('',*,*,#155,.F.) ;
#188=ORIENTED_EDGE('',*,*,#174,.F.) ;
#189=ORIENTED_EDGE('',*,*,#110,.F.) ;
#190=ORIENTED_EDGE('',*,*,#181,.T.) ;
#191=ORIENTED_EDGE('',*,*,#186,.T.) ;
#212=ORIENTED_EDGE('',*,*,#174,.T.) ;
#213=ORIENTED_EDGE('',*,*,#205,.T.) ;
#214=ORIENTED_EDGE('',*,*,#210,.F.) ;
#215=ORIENTED_EDGE('',*,*,#117,.T.) ;
#224=ORIENTED_EDGE('',*,*,#222,.F.) ;
#225=ORIENTED_EDGE('',*,*,#150,.F.) ;
#226=ORIENTED_EDGE('',*,*,#124,.T.) ;
#227=ORIENTED_EDGE('',*,*,#210,.T.) ;
#241=ORIENTED_EDGE('',*,*,#155,.T.) ;
#242=ORIENTED_EDGE('',*,*,#222,.T.) ;
#243=ORIENTED_EDGE('',*,*,#205,.F.) ;
#244=ORIENTED_EDGE('',*,*,#186,.F.) ;
#245=ORIENTED_EDGE('',*,*,#239,.F.) ;
#246=ORIENTED_EDGE('',*,*,#72,.T.) ;
#250=ORIENTED_EDGE('',*,*,#239,.T.) ;
#251=ORIENTED_EDGE('',*,*,#181,.F.) ;
#252=ORIENTED_EDGE('',*,*,#103,.F.) ;
#253=ORIENTED_EDGE('',*,*,#79,.T.) ;
#51=CLOSED_SHELL('Closed Shell',(#91,#138,#162,#193,#217,#229,#248,#255)) ;
#59=VECTOR('Line Direction',#58,1.) ;
#68=VECTOR('Line Direction',#67,1.) ;
#75=VECTOR('Line Direction',#74,1.) ;
#82=VECTOR('Line Direction',#81,1.) ;
#113=VECTOR('Line Direction',#112,1.) ;
#146=VECTOR('Line Direction',#145,1.) ;
#170=VECTOR('Line Direction',#169,1.) ;
#177=VECTOR('Line Direction',#176,1.) ;
#201=VECTOR('Line Direction',#200,1.) ;
#208=VECTOR('Line Direction',#207,1.) ;
#257=ADVANCED_BREP_SHAPE_REPRESENTATION('NONE',(#256),#46) ;
#49=SHAPE_REPRESENTATION(' ',(#48),#46) ;
#91=ADVANCED_FACE('Corps principal',(#90),#56,.F.) ;
#138=ADVANCED_FACE('Corps principal',(#137),#96,.F.) ;
#162=ADVANCED_FACE('Corps principal',(#161),#143,.T.) ;
#193=ADVANCED_FACE('Corps principal',(#192),#167,.F.) ;
#217=ADVANCED_FACE('Corps principal',(#216),#198,.F.) ;
#229=ADVANCED_FACE('Corps principal',(#228),#143,.T.) ;
#248=ADVANCED_FACE('Corps principal',(#247),#234,.T.) ;
#255=ADVANCED_FACE('Corps principal',(#254),#167,.F.) ;
#4=APPLICATION_PROTOCOL_DEFINITION('international standard','config_control_design',1994,#1) ;
#32=APPROVAL_DATE_TIME(#13,#21) ;
#256=MANIFOLD_SOLID_BREP('Corps principal',#51) ;
#11=CALENDAR_DATE(2018,1,10) ;
#30=CC_DESIGN_APPROVAL(#21,(#16,#6,#14)) ;
#18=CC_DESIGN_DATE_AND_TIME_ASSIGNMENT(#13,#17,(#16)) ;
#29=CC_DESIGN_DATE_AND_TIME_ASSIGNMENT(#13,#28,(#14)) ;
#17=DATE_TIME_ROLE('classification_date') ;
#28=DATE_TIME_ROLE('creation_date') ;
#27=CC_DESIGN_PERSON_AND_ORGANIZATION_ASSIGNMENT(#25,#26,(#16)) ;
#33=CC_DESIGN_PERSON_AND_ORGANIZATION_ASSIGNMENT(#25,#34,(#6)) ;
#35=CC_DESIGN_PERSON_AND_ORGANIZATION_ASSIGNMENT(#25,#36,(#6,#14)) ;
#37=CC_DESIGN_PERSON_AND_ORGANIZATION_ASSIGNMENT(#25,#38,(#5)) ;
#26=PERSON_AND_ORGANIZATION_ROLE('classification_officer') ;
#34=PERSON_AND_ORGANIZATION_ROLE('design_supplier') ;
#36=PERSON_AND_ORGANIZATION_ROLE('creator') ;
#38=PERSON_AND_ORGANIZATION_ROLE('design_owner') ;
#39=CC_DESIGN_SECURITY_CLASSIFICATION(#16,(#6)) ;
#100=CIRCLE('generated circle',#99,16.) ;
#107=CIRCLE('generated circle',#106,16.) ;
#121=CIRCLE('generated circle',#120,18.) ;
#128=CIRCLE('generated circle',#127,18.) ;
#154=CIRCLE('generated circle',#153,18.) ;
#185=CIRCLE('generated circle',#184,16.) ;
#221=CIRCLE('generated circle',#220,18.) ;
#238=CIRCLE('generated circle',#237,16.) ;
#258=SHAPE_REPRESENTATION_RELATIONSHIP(' ',' ',#49,#257) ;
#143=CYLINDRICAL_SURFACE('generated cylinder',#142,18.) ;
#167=CYLINDRICAL_SURFACE('generated cylinder',#166,16.) ;
#3=DESIGN_CONTEXT(' ',#1,'design') ;
#65=EDGE_CURVE('',#62,#64,#60,.T.) ;
#72=EDGE_CURVE('',#71,#64,#69,.T.) ;
#79=EDGE_CURVE('',#78,#71,#76,.T.) ;
#84=EDGE_CURVE('',#78,#62,#83,.F.) ;
#103=EDGE_CURVE('',#78,#102,#100,.T.) ;
#110=EDGE_CURVE('',#102,#109,#107,.T.) ;
#117=EDGE_CURVE('',#116,#109,#114,.F.) ;
#124=EDGE_CURVE('',#123,#116,#121,.T.) ;
#129=EDGE_CURVE('',#62,#123,#128,.T.) ;
#150=EDGE_CURVE('',#123,#149,#147,.T.) ;
#155=EDGE_CURVE('',#64,#149,#154,.T.) ;
#174=EDGE_CURVE('',#109,#173,#171,.T.) ;
#181=EDGE_CURVE('',#102,#180,#178,.T.) ;
#186=EDGE_CURVE('',#180,#173,#185,.T.) ;
#205=EDGE_CURVE('',#173,#204,#202,.T.) ;
#210=EDGE_CURVE('',#116,#204,#209,.T.) ;
#222=EDGE_CURVE('',#149,#204,#221,.T.) ;
#239=EDGE_CURVE('',#71,#180,#238,.T.) ;
#85=EDGE_LOOP('',(#86,#87,#88,#89)) ;
#130=EDGE_LOOP('',(#131,#132,#133,#134,#135,#136)) ;
#156=EDGE_LOOP('',(#157,#158,#159,#160)) ;
#187=EDGE_LOOP('',(#188,#189,#190,#191)) ;
#211=EDGE_LOOP('',(#212,#213,#214,#215)) ;
#223=EDGE_LOOP('',(#224,#225,#226,#227)) ;
#240=EDGE_LOOP('',(#241,#242,#243,#244,#245,#246)) ;
#249=EDGE_LOOP('',(#250,#251,#252,#253)) ;
#90=FACE_OUTER_BOUND('',#85,.T.) ;
#137=FACE_OUTER_BOUND('',#130,.T.) ;
#161=FACE_OUTER_BOUND('',#156,.T.) ;
#192=FACE_OUTER_BOUND('',#187,.T.) ;
#216=FACE_OUTER_BOUND('',#211,.T.) ;
#228=FACE_OUTER_BOUND('',#223,.T.) ;
#247=FACE_OUTER_BOUND('',#240,.T.) ;
#254=FACE_OUTER_BOUND('',#249,.T.) ;
#45=UNCERTAINTY_MEASURE_WITH_UNIT(LENGTH_MEASURE(0.005),#41,'distance_accuracy_value','CONFUSED CURVE UNCERTAINTY') ;
#60=LINE('Line',#57,#59) ;
#69=LINE('Line',#66,#68) ;
#76=LINE('Line',#73,#75) ;
#83=LINE('Line',#80,#82) ;
#114=LINE('Line',#111,#113) ;
#147=LINE('Line',#144,#146) ;
#171=LINE('Line',#168,#170) ;
#178=LINE('Line',#175,#177) ;
#202=LINE('Line',#199,#201) ;
#209=LINE('Line',#206,#208) ;
#2=MECHANICAL_CONTEXT(' ',#1,'mechanical') ;
#24=PERSONAL_ADDRESS(' ',' ',' ',' ',' ',' ',' ',' ',' ',' ',' ',' ',(#22),' ') ;
#56=PLANE('Plane',#55) ;
#96=PLANE('Plane',#95) ;
#198=PLANE('Plane',#197) ;
#234=PLANE('Plane',#233) ;
#43=PLANE_ANGLE_MEASURE_WITH_UNIT(PLANE_ANGLE_MEASURE(0.0174532925199),#42) ;
#7=PRODUCT_CATEGORY('part',$) ;
#9=PRODUCT_CATEGORY_RELATIONSHIP(' ',' ',#7,#8) ;
#6=PRODUCT_DEFINITION_FORMATION_WITH_SPECIFIED_SOURCE('',' ',#5,.NOT_KNOWN.) ;
#8=PRODUCT_RELATED_PRODUCT_CATEGORY('detail',$,(#5)) ;
#50=SHAPE_DEFINITION_REPRESENTATION(#40,#49) ;
#62=VERTEX_POINT('',#61) ;
#64=VERTEX_POINT('',#63) ;
#71=VERTEX_POINT('',#70) ;
#78=VERTEX_POINT('',#77) ;
#102=VERTEX_POINT('',#101) ;
#109=VERTEX_POINT('',#108) ;
#116=VERTEX_POINT('',#115) ;
#123=VERTEX_POINT('',#122) ;
#149=VERTEX_POINT('',#148) ;
#173=VERTEX_POINT('',#172) ;
#180=VERTEX_POINT('',#179) ;
#204=VERTEX_POINT('',#203) ;
#41=(LENGTH_UNIT()NAMED_UNIT(*)SI_UNIT(.MILLI.,.METRE.)) ;
#42=(NAMED_UNIT(*)PLANE_ANGLE_UNIT()SI_UNIT($,.RADIAN.)) ;
#44=(NAMED_UNIT(*)SI_UNIT($,.STERADIAN.)SOLID_ANGLE_UNIT()) ;
#46=(GEOMETRIC_REPRESENTATION_CONTEXT(3)GLOBAL_UNCERTAINTY_ASSIGNED_CONTEXT((#45))GLOBAL_UNIT_ASSIGNED_CONTEXT((#41,#42,#44))REPRESENTATION_CONTEXT(' ',' ')) ;
ENDSEC;
END-ISO-10303-21;
