ISO-10303-21;
HEADER;
FILE_DESCRIPTION(('CATIA V5 STEP Exchange'),'2;1');

FILE_NAME('\\\\fs1-enseig-v\\bureau$\\ebourgea\\Bureau\\TD et TP PROJET\\Semestre 1\\TP CATIA ERIC\\VERIN FESTO\\CATIA R19\\Joint.stp','2018-10-01T09:18:05+00:00',('none'),('none'),'CATIA Version 5 Release 19 SP 6 (IN-10)','CATIA V5 STEP AP203','none');

FILE_SCHEMA(('CONFIG_CONTROL_DESIGN'));

ENDSEC;
/* file written by CATIA V5R19 */
DATA;
#5=PRODUCT('Joint','','',(#2)) ;
#1=APPLICATION_CONTEXT('configuration controlled 3D design of mechanical parts and assemblies') ;
#14=PRODUCT_DEFINITION('',' ',#6,#3) ;
#16=SECURITY_CLASSIFICATION(' ',' ',#15) ;
#15=SECURITY_CLASSIFICATION_LEVEL('unclassified') ;
#47=CARTESIAN_POINT(' ',(0.,0.,0.)) ;
#52=CARTESIAN_POINT('Axis2P3D Location',(0.,0.,-4.)) ;
#57=CARTESIAN_POINT('Axis2P3D Location',(0.,0.,-2.5)) ;
#61=CARTESIAN_POINT('Vertex',(4.79425538604,8.7758256189,-2.5)) ;
#63=CARTESIAN_POINT('Vertex',(-4.79425538604,-8.7758256189,-2.5)) ;
#66=CARTESIAN_POINT('Line Origine',(4.79425538604,8.7758256189,-4.)) ;
#70=CARTESIAN_POINT('Vertex',(4.79425538604,8.7758256189,-5.5)) ;
#73=CARTESIAN_POINT('Axis2P3D Location',(0.,0.,-5.5)) ;
#77=CARTESIAN_POINT('Vertex',(-4.79425538604,-8.7758256189,-5.5)) ;
#80=CARTESIAN_POINT('Line Origine',(-4.79425538604,-8.7758256189,-4.)) ;
#92=CARTESIAN_POINT('Axis2P3D Location',(0.,0.,-2.5)) ;
#97=CARTESIAN_POINT('Axis2P3D Location',(0.,0.,-5.5)) ;
#109=CARTESIAN_POINT('Axis2P3D Location',(0.,0.,-4.)) ;
#114=CARTESIAN_POINT('Axis2P3D Location',(0.,0.,-5.5)) ;
#118=CARTESIAN_POINT('Vertex',(6.47224477116,11.8473645855,-5.5)) ;
#120=CARTESIAN_POINT('Vertex',(-6.47224477116,-11.8473645855,-5.5)) ;
#123=CARTESIAN_POINT('Line Origine',(6.47224477116,11.8473645855,-4.75)) ;
#127=CARTESIAN_POINT('Vertex',(6.47224477116,11.8473645855,-4.)) ;
#130=CARTESIAN_POINT('Axis2P3D Location',(0.,0.,-4.)) ;
#134=CARTESIAN_POINT('Vertex',(-6.47224477116,-11.8473645855,-4.)) ;
#137=CARTESIAN_POINT('Line Origine',(-6.47224477116,-11.8473645855,-4.75)) ;
#149=CARTESIAN_POINT('Axis2P3D Location',(0.,0.,-5.5)) ;
#154=CARTESIAN_POINT('Axis2P3D Location',(0.,0.,-4.)) ;
#166=CARTESIAN_POINT('Axis2P3D Location',(0.,0.,-4.)) ;
#171=CARTESIAN_POINT('Axis2P3D Location',(0.,0.,-4.)) ;
#175=CARTESIAN_POINT('Vertex',(6.95167030976,12.7249471474,-4.)) ;
#177=CARTESIAN_POINT('Vertex',(-6.95167030976,-12.7249471474,-4.)) ;
#180=CARTESIAN_POINT('Line Origine',(6.95167030976,12.7249471474,-4.75)) ;
#184=CARTESIAN_POINT('Vertex',(6.95167030976,12.7249471474,-5.5)) ;
#187=CARTESIAN_POINT('Axis2P3D Location',(0.,0.,-5.5)) ;
#191=CARTESIAN_POINT('Vertex',(-6.95167030976,-12.7249471474,-5.5)) ;
#194=CARTESIAN_POINT('Line Origine',(-6.95167030976,-12.7249471474,-4.75)) ;
#206=CARTESIAN_POINT('Axis2P3D Location',(0.,0.,-4.)) ;
#211=CARTESIAN_POINT('Axis2P3D Location',(0.,0.,-5.5)) ;
#223=CARTESIAN_POINT('Axis2P3D Location',(0.,0.,-5.5)) ;
#228=CARTESIAN_POINT('Axis2P3D Location',(0.,0.,-5.5)) ;
#232=CARTESIAN_POINT('Vertex',(7.33180356825,13.4207764097,-5.5)) ;
#234=CARTESIAN_POINT('Vertex',(-7.33180356825,-13.4207764097,-5.5)) ;
#237=CARTESIAN_POINT('Line Origine',(7.50130609296,13.7310487,-5.14644660941)) ;
#241=CARTESIAN_POINT('Vertex',(7.67080861767,14.0413209902,-4.79289321881)) ;
#244=CARTESIAN_POINT('Axis2P3D Location',(0.,0.,-4.79289321881)) ;
#248=CARTESIAN_POINT('Vertex',(-7.67080861767,-14.0413209902,-4.79289321881)) ;
#251=CARTESIAN_POINT('Line Origine',(-7.50130609296,-13.7310487,-5.14644660941)) ;
#263=CARTESIAN_POINT('Axis2P3D Location',(0.,0.,-5.5)) ;
#268=CARTESIAN_POINT('Axis2P3D Location',(0.,0.,-4.79289321881)) ;
#280=CARTESIAN_POINT('Axis2P3D Location',(0.,0.,-4.)) ;
#285=CARTESIAN_POINT('Line Origine',(7.67080861767,14.0413209902,-4.)) ;
#289=CARTESIAN_POINT('Vertex',(7.67080861767,14.0413209902,-3.20710678119)) ;
#292=CARTESIAN_POINT('Axis2P3D Location',(0.,0.,-3.20710678119)) ;
#296=CARTESIAN_POINT('Vertex',(-7.67080861767,-14.0413209902,-3.20710678119)) ;
#299=CARTESIAN_POINT('Line Origine',(-7.67080861767,-14.0413209902,-4.)) ;
#311=CARTESIAN_POINT('Axis2P3D Location',(0.,0.,-3.20710678119)) ;
#323=CARTESIAN_POINT('Axis2P3D Location',(0.,0.,-2.5)) ;
#328=CARTESIAN_POINT('Line Origine',(7.50130609296,13.7310487,-2.85355339059)) ;
#332=CARTESIAN_POINT('Vertex',(7.33180356825,13.4207764097,-2.5)) ;
#335=CARTESIAN_POINT('Axis2P3D Location',(0.,0.,-2.5)) ;
#339=CARTESIAN_POINT('Vertex',(-7.33180356825,-13.4207764097,-2.5)) ;
#342=CARTESIAN_POINT('Line Origine',(-7.50130609296,-13.7310487,-2.85355339059)) ;
#354=CARTESIAN_POINT('Axis2P3D Location',(0.,0.,-2.5)) ;
#366=CARTESIAN_POINT('Axis2P3D Location',(0.,0.,-4.)) ;
#371=CARTESIAN_POINT('Axis2P3D Location',(0.,0.,-2.5)) ;
#375=CARTESIAN_POINT('Vertex',(5.75310646325,10.5309907427,-2.5)) ;
#377=CARTESIAN_POINT('Vertex',(-5.75310646325,-10.5309907427,-2.5)) ;
#380=CARTESIAN_POINT('Line Origine',(5.75310646325,10.5309907427,-3.25)) ;
#384=CARTESIAN_POINT('Vertex',(5.75310646325,10.5309907427,-4.)) ;
#387=CARTESIAN_POINT('Axis2P3D Location',(0.,0.,-4.)) ;
#391=CARTESIAN_POINT('Vertex',(-5.75310646325,-10.5309907427,-4.)) ;
#394=CARTESIAN_POINT('Line Origine',(-5.75310646325,-10.5309907427,-3.25)) ;
#406=CARTESIAN_POINT('Axis2P3D Location',(0.,0.,-2.5)) ;
#411=CARTESIAN_POINT('Axis2P3D Location',(0.,0.,-4.)) ;
#423=CARTESIAN_POINT('Axis2P3D Location',(0.,0.,-4.)) ;
#428=CARTESIAN_POINT('Axis2P3D Location',(0.,0.,-4.)) ;
#432=CARTESIAN_POINT('Vertex',(5.27368092465,9.65340818079,-4.)) ;
#434=CARTESIAN_POINT('Vertex',(-5.27368092465,-9.65340818079,-4.)) ;
#437=CARTESIAN_POINT('Line Origine',(5.27368092465,9.65340818079,-3.25)) ;
#441=CARTESIAN_POINT('Vertex',(5.27368092465,9.65340818079,-2.5)) ;
#444=CARTESIAN_POINT('Axis2P3D Location',(0.,0.,-2.5)) ;
#448=CARTESIAN_POINT('Vertex',(-5.27368092465,-9.65340818079,-2.5)) ;
#451=CARTESIAN_POINT('Line Origine',(-5.27368092465,-9.65340818079,-3.25)) ;
#463=CARTESIAN_POINT('Axis2P3D Location',(0.,0.,-4.)) ;
#468=CARTESIAN_POINT('Axis2P3D Location',(0.,0.,-2.5)) ;
#480=CARTESIAN_POINT('Axis2P3D Location',(0.,13.5,-5.5)) ;
#494=CARTESIAN_POINT('Axis2P3D Location',(0.,14.5,-4.)) ;
#517=CARTESIAN_POINT('Axis2P3D Location',(0.,12.,-2.5)) ;
#53=DIRECTION('Axis2P3D Direction',(0.,0.,-1.)) ;
#54=DIRECTION('Axis2P3D XDirection',(0.479425538604,0.87758256189,0.)) ;
#58=DIRECTION('Axis2P3D Direction',(0.,0.,-1.)) ;
#67=DIRECTION('Vector Direction',(0.,0.,-1.)) ;
#74=DIRECTION('Axis2P3D Direction',(0.,0.,-1.)) ;
#81=DIRECTION('Vector Direction',(0.,0.,-1.)) ;
#93=DIRECTION('Axis2P3D Direction',(0.,0.,-1.)) ;
#98=DIRECTION('Axis2P3D Direction',(0.,0.,-1.)) ;
#110=DIRECTION('Axis2P3D Direction',(0.,0.,-1.)) ;
#111=DIRECTION('Axis2P3D XDirection',(0.479425538604,0.87758256189,0.)) ;
#115=DIRECTION('Axis2P3D Direction',(0.,0.,-1.)) ;
#124=DIRECTION('Vector Direction',(0.,0.,-1.)) ;
#131=DIRECTION('Axis2P3D Direction',(0.,0.,-1.)) ;
#138=DIRECTION('Vector Direction',(0.,0.,-1.)) ;
#150=DIRECTION('Axis2P3D Direction',(0.,0.,-1.)) ;
#155=DIRECTION('Axis2P3D Direction',(0.,0.,-1.)) ;
#167=DIRECTION('Axis2P3D Direction',(0.,0.,-1.)) ;
#168=DIRECTION('Axis2P3D XDirection',(0.479425538604,0.87758256189,0.)) ;
#172=DIRECTION('Axis2P3D Direction',(0.,0.,-1.)) ;
#181=DIRECTION('Vector Direction',(0.,0.,-1.)) ;
#188=DIRECTION('Axis2P3D Direction',(0.,0.,-1.)) ;
#195=DIRECTION('Vector Direction',(0.,0.,-1.)) ;
#207=DIRECTION('Axis2P3D Direction',(0.,0.,-1.)) ;
#212=DIRECTION('Axis2P3D Direction',(0.,0.,-1.)) ;
#224=DIRECTION('Axis2P3D Direction',(-0.,-0.,1.)) ;
#225=DIRECTION('Axis2P3D XDirection',(0.479425538604,0.87758256189,0.)) ;
#229=DIRECTION('Axis2P3D Direction',(-0.,0.,1.)) ;
#238=DIRECTION('Vector Direction',(0.339005049421,0.620544580564,0.707106781187)) ;
#245=DIRECTION('Axis2P3D Direction',(-0.,0.,1.)) ;
#252=DIRECTION('Vector Direction',(-0.339005049421,-0.620544580564,0.707106781187)) ;
#264=DIRECTION('Axis2P3D Direction',(-0.,0.,1.)) ;
#269=DIRECTION('Axis2P3D Direction',(-0.,0.,1.)) ;
#281=DIRECTION('Axis2P3D Direction',(0.,0.,-1.)) ;
#282=DIRECTION('Axis2P3D XDirection',(0.479425538604,0.87758256189,0.)) ;
#286=DIRECTION('Vector Direction',(0.,0.,-1.)) ;
#293=DIRECTION('Axis2P3D Direction',(0.,0.,-1.)) ;
#300=DIRECTION('Vector Direction',(0.,0.,-1.)) ;
#312=DIRECTION('Axis2P3D Direction',(0.,0.,-1.)) ;
#324=DIRECTION('Axis2P3D Direction',(0.,0.,-1.)) ;
#325=DIRECTION('Axis2P3D XDirection',(0.479425538604,0.87758256189,0.)) ;
#329=DIRECTION('Vector Direction',(0.339005049421,0.620544580564,-0.707106781187)) ;
#336=DIRECTION('Axis2P3D Direction',(0.,0.,-1.)) ;
#343=DIRECTION('Vector Direction',(-0.339005049421,-0.620544580564,-0.707106781187)) ;
#355=DIRECTION('Axis2P3D Direction',(0.,0.,-1.)) ;
#367=DIRECTION('Axis2P3D Direction',(0.,0.,-1.)) ;
#368=DIRECTION('Axis2P3D XDirection',(0.479425538604,0.87758256189,0.)) ;
#372=DIRECTION('Axis2P3D Direction',(0.,0.,-1.)) ;
#381=DIRECTION('Vector Direction',(0.,0.,-1.)) ;
#388=DIRECTION('Axis2P3D Direction',(0.,0.,-1.)) ;
#395=DIRECTION('Vector Direction',(0.,0.,-1.)) ;
#407=DIRECTION('Axis2P3D Direction',(0.,0.,-1.)) ;
#412=DIRECTION('Axis2P3D Direction',(0.,0.,-1.)) ;
#424=DIRECTION('Axis2P3D Direction',(0.,0.,-1.)) ;
#425=DIRECTION('Axis2P3D XDirection',(0.479425538604,0.87758256189,0.)) ;
#429=DIRECTION('Axis2P3D Direction',(0.,0.,-1.)) ;
#438=DIRECTION('Vector Direction',(0.,0.,-1.)) ;
#445=DIRECTION('Axis2P3D Direction',(0.,0.,-1.)) ;
#452=DIRECTION('Vector Direction',(0.,0.,-1.)) ;
#464=DIRECTION('Axis2P3D Direction',(0.,0.,-1.)) ;
#469=DIRECTION('Axis2P3D Direction',(0.,0.,-1.)) ;
#481=DIRECTION('Axis2P3D Direction',(0.,0.,-1.)) ;
#482=DIRECTION('Axis2P3D XDirection',(1.,0.,0.)) ;
#495=DIRECTION('Axis2P3D Direction',(0.,0.,-1.)) ;
#496=DIRECTION('Axis2P3D XDirection',(1.,0.,0.)) ;
#518=DIRECTION('Axis2P3D Direction',(0.,0.,-1.)) ;
#519=DIRECTION('Axis2P3D XDirection',(1.,0.,0.)) ;
#48=AXIS2_PLACEMENT_3D(' ',#47,$,$) ;
#55=AXIS2_PLACEMENT_3D('Cylinder Axis2P3D',#52,#53,#54) ;
#59=AXIS2_PLACEMENT_3D('Circle Axis2P3D',#57,#58,$) ;
#75=AXIS2_PLACEMENT_3D('Circle Axis2P3D',#73,#74,$) ;
#94=AXIS2_PLACEMENT_3D('Circle Axis2P3D',#92,#93,$) ;
#99=AXIS2_PLACEMENT_3D('Circle Axis2P3D',#97,#98,$) ;
#112=AXIS2_PLACEMENT_3D('Cylinder Axis2P3D',#109,#110,#111) ;
#116=AXIS2_PLACEMENT_3D('Circle Axis2P3D',#114,#115,$) ;
#132=AXIS2_PLACEMENT_3D('Circle Axis2P3D',#130,#131,$) ;
#151=AXIS2_PLACEMENT_3D('Circle Axis2P3D',#149,#150,$) ;
#156=AXIS2_PLACEMENT_3D('Circle Axis2P3D',#154,#155,$) ;
#169=AXIS2_PLACEMENT_3D('Cylinder Axis2P3D',#166,#167,#168) ;
#173=AXIS2_PLACEMENT_3D('Circle Axis2P3D',#171,#172,$) ;
#189=AXIS2_PLACEMENT_3D('Circle Axis2P3D',#187,#188,$) ;
#208=AXIS2_PLACEMENT_3D('Circle Axis2P3D',#206,#207,$) ;
#213=AXIS2_PLACEMENT_3D('Circle Axis2P3D',#211,#212,$) ;
#226=AXIS2_PLACEMENT_3D('Cone Axis2P3D',#223,#224,#225) ;
#230=AXIS2_PLACEMENT_3D('Circle Axis2P3D',#228,#229,$) ;
#246=AXIS2_PLACEMENT_3D('Circle Axis2P3D',#244,#245,$) ;
#265=AXIS2_PLACEMENT_3D('Circle Axis2P3D',#263,#264,$) ;
#270=AXIS2_PLACEMENT_3D('Circle Axis2P3D',#268,#269,$) ;
#283=AXIS2_PLACEMENT_3D('Cylinder Axis2P3D',#280,#281,#282) ;
#294=AXIS2_PLACEMENT_3D('Circle Axis2P3D',#292,#293,$) ;
#313=AXIS2_PLACEMENT_3D('Circle Axis2P3D',#311,#312,$) ;
#326=AXIS2_PLACEMENT_3D('Cone Axis2P3D',#323,#324,#325) ;
#337=AXIS2_PLACEMENT_3D('Circle Axis2P3D',#335,#336,$) ;
#356=AXIS2_PLACEMENT_3D('Circle Axis2P3D',#354,#355,$) ;
#369=AXIS2_PLACEMENT_3D('Cylinder Axis2P3D',#366,#367,#368) ;
#373=AXIS2_PLACEMENT_3D('Circle Axis2P3D',#371,#372,$) ;
#389=AXIS2_PLACEMENT_3D('Circle Axis2P3D',#387,#388,$) ;
#408=AXIS2_PLACEMENT_3D('Circle Axis2P3D',#406,#407,$) ;
#413=AXIS2_PLACEMENT_3D('Circle Axis2P3D',#411,#412,$) ;
#426=AXIS2_PLACEMENT_3D('Cylinder Axis2P3D',#423,#424,#425) ;
#430=AXIS2_PLACEMENT_3D('Circle Axis2P3D',#428,#429,$) ;
#446=AXIS2_PLACEMENT_3D('Circle Axis2P3D',#444,#445,$) ;
#465=AXIS2_PLACEMENT_3D('Circle Axis2P3D',#463,#464,$) ;
#470=AXIS2_PLACEMENT_3D('Circle Axis2P3D',#468,#469,$) ;
#483=AXIS2_PLACEMENT_3D('Plane Axis2P3D',#480,#481,#482) ;
#497=AXIS2_PLACEMENT_3D('Plane Axis2P3D',#494,#495,#496) ;
#520=AXIS2_PLACEMENT_3D('Plane Axis2P3D',#517,#518,#519) ;
#40=PRODUCT_DEFINITION_SHAPE(' ',' ',#14) ;
#31=APPROVAL_PERSON_ORGANIZATION(#25,#21,#19) ;
#25=PERSON_AND_ORGANIZATION(#22,#23) ;
#22=PERSON(' ',' ',' ',$,$,$) ;
#23=ORGANIZATION(' ',' ',' ') ;
#21=APPROVAL(#20,' ') ;
#20=APPROVAL_STATUS('not_yet_approved') ;
#19=APPROVAL_ROLE('APPROVER') ;
#13=DATE_AND_TIME(#11,#12) ;
#12=LOCAL_TIME(11,18,5.,#10) ;
#10=COORDINATED_UNIVERSAL_TIME_OFFSET(0,0,.AHEAD.) ;
#86=ORIENTED_EDGE('',*,*,#65,.F.) ;
#87=ORIENTED_EDGE('',*,*,#72,.T.) ;
#88=ORIENTED_EDGE('',*,*,#79,.T.) ;
#89=ORIENTED_EDGE('',*,*,#84,.F.) ;
#103=ORIENTED_EDGE('',*,*,#96,.F.) ;
#104=ORIENTED_EDGE('',*,*,#84,.T.) ;
#105=ORIENTED_EDGE('',*,*,#101,.T.) ;
#106=ORIENTED_EDGE('',*,*,#72,.F.) ;
#143=ORIENTED_EDGE('',*,*,#122,.F.) ;
#144=ORIENTED_EDGE('',*,*,#129,.T.) ;
#145=ORIENTED_EDGE('',*,*,#136,.T.) ;
#146=ORIENTED_EDGE('',*,*,#141,.F.) ;
#160=ORIENTED_EDGE('',*,*,#153,.F.) ;
#161=ORIENTED_EDGE('',*,*,#141,.T.) ;
#162=ORIENTED_EDGE('',*,*,#158,.T.) ;
#163=ORIENTED_EDGE('',*,*,#129,.F.) ;
#200=ORIENTED_EDGE('',*,*,#179,.F.) ;
#201=ORIENTED_EDGE('',*,*,#186,.T.) ;
#202=ORIENTED_EDGE('',*,*,#193,.T.) ;
#203=ORIENTED_EDGE('',*,*,#198,.F.) ;
#217=ORIENTED_EDGE('',*,*,#210,.F.) ;
#218=ORIENTED_EDGE('',*,*,#198,.T.) ;
#219=ORIENTED_EDGE('',*,*,#215,.T.) ;
#220=ORIENTED_EDGE('',*,*,#186,.F.) ;
#257=ORIENTED_EDGE('',*,*,#236,.F.) ;
#258=ORIENTED_EDGE('',*,*,#243,.T.) ;
#259=ORIENTED_EDGE('',*,*,#250,.T.) ;
#260=ORIENTED_EDGE('',*,*,#255,.F.) ;
#274=ORIENTED_EDGE('',*,*,#267,.F.) ;
#275=ORIENTED_EDGE('',*,*,#255,.T.) ;
#276=ORIENTED_EDGE('',*,*,#272,.T.) ;
#277=ORIENTED_EDGE('',*,*,#243,.F.) ;
#305=ORIENTED_EDGE('',*,*,#250,.F.) ;
#306=ORIENTED_EDGE('',*,*,#291,.T.) ;
#307=ORIENTED_EDGE('',*,*,#298,.T.) ;
#308=ORIENTED_EDGE('',*,*,#303,.F.) ;
#317=ORIENTED_EDGE('',*,*,#272,.F.) ;
#318=ORIENTED_EDGE('',*,*,#303,.T.) ;
#319=ORIENTED_EDGE('',*,*,#315,.T.) ;
#320=ORIENTED_EDGE('',*,*,#291,.F.) ;
#348=ORIENTED_EDGE('',*,*,#298,.F.) ;
#349=ORIENTED_EDGE('',*,*,#334,.T.) ;
#350=ORIENTED_EDGE('',*,*,#341,.T.) ;
#351=ORIENTED_EDGE('',*,*,#346,.F.) ;
#360=ORIENTED_EDGE('',*,*,#315,.F.) ;
#361=ORIENTED_EDGE('',*,*,#346,.T.) ;
#362=ORIENTED_EDGE('',*,*,#358,.T.) ;
#363=ORIENTED_EDGE('',*,*,#334,.F.) ;
#400=ORIENTED_EDGE('',*,*,#379,.F.) ;
#401=ORIENTED_EDGE('',*,*,#386,.T.) ;
#402=ORIENTED_EDGE('',*,*,#393,.T.) ;
#403=ORIENTED_EDGE('',*,*,#398,.F.) ;
#417=ORIENTED_EDGE('',*,*,#410,.F.) ;
#418=ORIENTED_EDGE('',*,*,#398,.T.) ;
#419=ORIENTED_EDGE('',*,*,#415,.T.) ;
#420=ORIENTED_EDGE('',*,*,#386,.F.) ;
#457=ORIENTED_EDGE('',*,*,#436,.F.) ;
#458=ORIENTED_EDGE('',*,*,#443,.T.) ;
#459=ORIENTED_EDGE('',*,*,#450,.T.) ;
#460=ORIENTED_EDGE('',*,*,#455,.F.) ;
#474=ORIENTED_EDGE('',*,*,#467,.F.) ;
#475=ORIENTED_EDGE('',*,*,#455,.T.) ;
#476=ORIENTED_EDGE('',*,*,#472,.T.) ;
#477=ORIENTED_EDGE('',*,*,#443,.F.) ;
#486=ORIENTED_EDGE('',*,*,#153,.T.) ;
#487=ORIENTED_EDGE('',*,*,#122,.T.) ;
#490=ORIENTED_EDGE('',*,*,#79,.F.) ;
#491=ORIENTED_EDGE('',*,*,#101,.F.) ;
#500=ORIENTED_EDGE('',*,*,#210,.T.) ;
#501=ORIENTED_EDGE('',*,*,#179,.T.) ;
#504=ORIENTED_EDGE('',*,*,#136,.F.) ;
#505=ORIENTED_EDGE('',*,*,#158,.F.) ;
#509=ORIENTED_EDGE('',*,*,#267,.T.) ;
#510=ORIENTED_EDGE('',*,*,#236,.T.) ;
#513=ORIENTED_EDGE('',*,*,#193,.F.) ;
#514=ORIENTED_EDGE('',*,*,#215,.F.) ;
#523=ORIENTED_EDGE('',*,*,#341,.F.) ;
#524=ORIENTED_EDGE('',*,*,#358,.F.) ;
#527=ORIENTED_EDGE('',*,*,#410,.T.) ;
#528=ORIENTED_EDGE('',*,*,#379,.T.) ;
#532=ORIENTED_EDGE('',*,*,#393,.F.) ;
#533=ORIENTED_EDGE('',*,*,#415,.F.) ;
#536=ORIENTED_EDGE('',*,*,#467,.T.) ;
#537=ORIENTED_EDGE('',*,*,#436,.T.) ;
#541=ORIENTED_EDGE('',*,*,#450,.F.) ;
#542=ORIENTED_EDGE('',*,*,#472,.F.) ;
#545=ORIENTED_EDGE('',*,*,#96,.T.) ;
#546=ORIENTED_EDGE('',*,*,#65,.T.) ;
#492=FACE_BOUND('',#489,.T.) ;
#506=FACE_BOUND('',#503,.T.) ;
#515=FACE_BOUND('',#512,.T.) ;
#529=FACE_BOUND('',#526,.T.) ;
#538=FACE_BOUND('',#535,.T.) ;
#547=FACE_BOUND('',#544,.T.) ;
#51=CLOSED_SHELL('Closed Shell',(#91,#108,#148,#165,#205,#222,#262,#279,#310,#322,#353,#365,#405,#422,#462,#479,#493,#507,#516,#530,#539,#548)) ;
#68=VECTOR('Line Direction',#67,1.) ;
#82=VECTOR('Line Direction',#81,1.) ;
#125=VECTOR('Line Direction',#124,1.) ;
#139=VECTOR('Line Direction',#138,1.) ;
#182=VECTOR('Line Direction',#181,1.) ;
#196=VECTOR('Line Direction',#195,1.) ;
#239=VECTOR('Line Direction',#238,1.) ;
#253=VECTOR('Line Direction',#252,1.) ;
#287=VECTOR('Line Direction',#286,1.) ;
#301=VECTOR('Line Direction',#300,1.) ;
#330=VECTOR('Line Direction',#329,1.) ;
#344=VECTOR('Line Direction',#343,1.) ;
#382=VECTOR('Line Direction',#381,1.) ;
#396=VECTOR('Line Direction',#395,1.) ;
#439=VECTOR('Line Direction',#438,1.) ;
#453=VECTOR('Line Direction',#452,1.) ;
#550=ADVANCED_BREP_SHAPE_REPRESENTATION('NONE',(#549),#46) ;
#49=SHAPE_REPRESENTATION(' ',(#48),#46) ;
#91=ADVANCED_FACE('Corps principal',(#90),#56,.F.) ;
#108=ADVANCED_FACE('Corps principal',(#107),#56,.F.) ;
#148=ADVANCED_FACE('Corps principal',(#147),#113,.T.) ;
#165=ADVANCED_FACE('Corps principal',(#164),#113,.T.) ;
#205=ADVANCED_FACE('Corps principal',(#204),#170,.F.) ;
#222=ADVANCED_FACE('Corps principal',(#221),#170,.F.) ;
#262=ADVANCED_FACE('Corps principal',(#261),#227,.T.) ;
#279=ADVANCED_FACE('Corps principal',(#278),#227,.T.) ;
#310=ADVANCED_FACE('Corps principal',(#309),#284,.T.) ;
#322=ADVANCED_FACE('Corps principal',(#321),#284,.T.) ;
#353=ADVANCED_FACE('Corps principal',(#352),#327,.T.) ;
#365=ADVANCED_FACE('Corps principal',(#364),#327,.T.) ;
#405=ADVANCED_FACE('Corps principal',(#404),#370,.F.) ;
#422=ADVANCED_FACE('Corps principal',(#421),#370,.F.) ;
#462=ADVANCED_FACE('Corps principal',(#461),#427,.T.) ;
#479=ADVANCED_FACE('Corps principal',(#478),#427,.T.) ;
#493=ADVANCED_FACE('Corps principal',(#488,#492),#484,.T.) ;
#507=ADVANCED_FACE('Corps principal',(#502,#506),#498,.T.) ;
#516=ADVANCED_FACE('Corps principal',(#511,#515),#484,.T.) ;
#530=ADVANCED_FACE('Corps principal',(#525,#529),#521,.F.) ;
#539=ADVANCED_FACE('Corps principal',(#534,#538),#498,.F.) ;
#548=ADVANCED_FACE('Corps principal',(#543,#547),#521,.F.) ;
#4=APPLICATION_PROTOCOL_DEFINITION('international standard','config_control_design',1994,#1) ;
#32=APPROVAL_DATE_TIME(#13,#21) ;
#549=MANIFOLD_SOLID_BREP('Corps principal',#51) ;
#11=CALENDAR_DATE(2018,1,10) ;
#30=CC_DESIGN_APPROVAL(#21,(#16,#6,#14)) ;
#18=CC_DESIGN_DATE_AND_TIME_ASSIGNMENT(#13,#17,(#16)) ;
#29=CC_DESIGN_DATE_AND_TIME_ASSIGNMENT(#13,#28,(#14)) ;
#17=DATE_TIME_ROLE('classification_date') ;
#28=DATE_TIME_ROLE('creation_date') ;
#27=CC_DESIGN_PERSON_AND_ORGANIZATION_ASSIGNMENT(#25,#26,(#16)) ;
#33=CC_DESIGN_PERSON_AND_ORGANIZATION_ASSIGNMENT(#25,#34,(#6)) ;
#35=CC_DESIGN_PERSON_AND_ORGANIZATION_ASSIGNMENT(#25,#36,(#6,#14)) ;
#37=CC_DESIGN_PERSON_AND_ORGANIZATION_ASSIGNMENT(#25,#38,(#5)) ;
#26=PERSON_AND_ORGANIZATION_ROLE('classification_officer') ;
#34=PERSON_AND_ORGANIZATION_ROLE('design_supplier') ;
#36=PERSON_AND_ORGANIZATION_ROLE('creator') ;
#38=PERSON_AND_ORGANIZATION_ROLE('design_owner') ;
#39=CC_DESIGN_SECURITY_CLASSIFICATION(#16,(#6)) ;
#60=CIRCLE('generated circle',#59,10.) ;
#76=CIRCLE('generated circle',#75,10.) ;
#95=CIRCLE('generated circle',#94,10.) ;
#100=CIRCLE('generated circle',#99,10.) ;
#117=CIRCLE('generated circle',#116,13.5) ;
#133=CIRCLE('generated circle',#132,13.5) ;
#152=CIRCLE('generated circle',#151,13.5) ;
#157=CIRCLE('generated circle',#156,13.5) ;
#174=CIRCLE('generated circle',#173,14.5) ;
#190=CIRCLE('generated circle',#189,14.5) ;
#209=CIRCLE('generated circle',#208,14.5) ;
#214=CIRCLE('generated circle',#213,14.5) ;
#231=CIRCLE('generated circle',#230,15.2928932188) ;
#247=CIRCLE('generated circle',#246,16.) ;
#266=CIRCLE('generated circle',#265,15.2928932188) ;
#271=CIRCLE('generated circle',#270,16.) ;
#295=CIRCLE('generated circle',#294,16.) ;
#314=CIRCLE('generated circle',#313,16.) ;
#338=CIRCLE('generated circle',#337,15.2928932188) ;
#357=CIRCLE('generated circle',#356,15.2928932188) ;
#374=CIRCLE('generated circle',#373,12.) ;
#390=CIRCLE('generated circle',#389,12.) ;
#409=CIRCLE('generated circle',#408,12.) ;
#414=CIRCLE('generated circle',#413,12.) ;
#431=CIRCLE('generated circle',#430,11.) ;
#447=CIRCLE('generated circle',#446,11.) ;
#466=CIRCLE('generated circle',#465,11.) ;
#471=CIRCLE('generated circle',#470,11.) ;
#227=CONICAL_SURFACE('Cone',#226,15.2928932188,0.785398163397) ;
#327=CONICAL_SURFACE('Cone',#326,15.2928932188,0.785398163397) ;
#551=SHAPE_REPRESENTATION_RELATIONSHIP(' ',' ',#49,#550) ;
#56=CYLINDRICAL_SURFACE('generated cylinder',#55,10.) ;
#113=CYLINDRICAL_SURFACE('generated cylinder',#112,13.5) ;
#170=CYLINDRICAL_SURFACE('generated cylinder',#169,14.5) ;
#284=CYLINDRICAL_SURFACE('generated cylinder',#283,16.) ;
#370=CYLINDRICAL_SURFACE('generated cylinder',#369,12.) ;
#427=CYLINDRICAL_SURFACE('generated cylinder',#426,11.) ;
#3=DESIGN_CONTEXT(' ',#1,'design') ;
#65=EDGE_CURVE('',#62,#64,#60,.T.) ;
#72=EDGE_CURVE('',#62,#71,#69,.T.) ;
#79=EDGE_CURVE('',#71,#78,#76,.T.) ;
#84=EDGE_CURVE('',#64,#78,#83,.T.) ;
#96=EDGE_CURVE('',#64,#62,#95,.T.) ;
#101=EDGE_CURVE('',#78,#71,#100,.T.) ;
#122=EDGE_CURVE('',#119,#121,#117,.T.) ;
#129=EDGE_CURVE('',#119,#128,#126,.F.) ;
#136=EDGE_CURVE('',#128,#135,#133,.T.) ;
#141=EDGE_CURVE('',#121,#135,#140,.F.) ;
#153=EDGE_CURVE('',#121,#119,#152,.T.) ;
#158=EDGE_CURVE('',#135,#128,#157,.T.) ;
#179=EDGE_CURVE('',#176,#178,#174,.T.) ;
#186=EDGE_CURVE('',#176,#185,#183,.T.) ;
#193=EDGE_CURVE('',#185,#192,#190,.T.) ;
#198=EDGE_CURVE('',#178,#192,#197,.T.) ;
#210=EDGE_CURVE('',#178,#176,#209,.T.) ;
#215=EDGE_CURVE('',#192,#185,#214,.T.) ;
#236=EDGE_CURVE('',#233,#235,#231,.F.) ;
#243=EDGE_CURVE('',#233,#242,#240,.T.) ;
#250=EDGE_CURVE('',#242,#249,#247,.F.) ;
#255=EDGE_CURVE('',#235,#249,#254,.T.) ;
#267=EDGE_CURVE('',#235,#233,#266,.F.) ;
#272=EDGE_CURVE('',#249,#242,#271,.F.) ;
#291=EDGE_CURVE('',#242,#290,#288,.F.) ;
#298=EDGE_CURVE('',#290,#297,#295,.T.) ;
#303=EDGE_CURVE('',#249,#297,#302,.F.) ;
#315=EDGE_CURVE('',#297,#290,#314,.T.) ;
#334=EDGE_CURVE('',#290,#333,#331,.F.) ;
#341=EDGE_CURVE('',#333,#340,#338,.T.) ;
#346=EDGE_CURVE('',#297,#340,#345,.F.) ;
#358=EDGE_CURVE('',#340,#333,#357,.T.) ;
#379=EDGE_CURVE('',#376,#378,#374,.T.) ;
#386=EDGE_CURVE('',#376,#385,#383,.T.) ;
#393=EDGE_CURVE('',#385,#392,#390,.T.) ;
#398=EDGE_CURVE('',#378,#392,#397,.T.) ;
#410=EDGE_CURVE('',#378,#376,#409,.T.) ;
#415=EDGE_CURVE('',#392,#385,#414,.T.) ;
#436=EDGE_CURVE('',#433,#435,#431,.T.) ;
#443=EDGE_CURVE('',#433,#442,#440,.F.) ;
#450=EDGE_CURVE('',#442,#449,#447,.T.) ;
#455=EDGE_CURVE('',#435,#449,#454,.F.) ;
#467=EDGE_CURVE('',#435,#433,#466,.T.) ;
#472=EDGE_CURVE('',#449,#442,#471,.T.) ;
#85=EDGE_LOOP('',(#86,#87,#88,#89)) ;
#102=EDGE_LOOP('',(#103,#104,#105,#106)) ;
#142=EDGE_LOOP('',(#143,#144,#145,#146)) ;
#159=EDGE_LOOP('',(#160,#161,#162,#163)) ;
#199=EDGE_LOOP('',(#200,#201,#202,#203)) ;
#216=EDGE_LOOP('',(#217,#218,#219,#220)) ;
#256=EDGE_LOOP('',(#257,#258,#259,#260)) ;
#273=EDGE_LOOP('',(#274,#275,#276,#277)) ;
#304=EDGE_LOOP('',(#305,#306,#307,#308)) ;
#316=EDGE_LOOP('',(#317,#318,#319,#320)) ;
#347=EDGE_LOOP('',(#348,#349,#350,#351)) ;
#359=EDGE_LOOP('',(#360,#361,#362,#363)) ;
#399=EDGE_LOOP('',(#400,#401,#402,#403)) ;
#416=EDGE_LOOP('',(#417,#418,#419,#420)) ;
#456=EDGE_LOOP('',(#457,#458,#459,#460)) ;
#473=EDGE_LOOP('',(#474,#475,#476,#477)) ;
#485=EDGE_LOOP('',(#486,#487)) ;
#489=EDGE_LOOP('',(#490,#491)) ;
#499=EDGE_LOOP('',(#500,#501)) ;
#503=EDGE_LOOP('',(#504,#505)) ;
#508=EDGE_LOOP('',(#509,#510)) ;
#512=EDGE_LOOP('',(#513,#514)) ;
#522=EDGE_LOOP('',(#523,#524)) ;
#526=EDGE_LOOP('',(#527,#528)) ;
#531=EDGE_LOOP('',(#532,#533)) ;
#535=EDGE_LOOP('',(#536,#537)) ;
#540=EDGE_LOOP('',(#541,#542)) ;
#544=EDGE_LOOP('',(#545,#546)) ;
#90=FACE_OUTER_BOUND('',#85,.T.) ;
#107=FACE_OUTER_BOUND('',#102,.T.) ;
#147=FACE_OUTER_BOUND('',#142,.T.) ;
#164=FACE_OUTER_BOUND('',#159,.T.) ;
#204=FACE_OUTER_BOUND('',#199,.T.) ;
#221=FACE_OUTER_BOUND('',#216,.T.) ;
#261=FACE_OUTER_BOUND('',#256,.T.) ;
#278=FACE_OUTER_BOUND('',#273,.T.) ;
#309=FACE_OUTER_BOUND('',#304,.T.) ;
#321=FACE_OUTER_BOUND('',#316,.T.) ;
#352=FACE_OUTER_BOUND('',#347,.T.) ;
#364=FACE_OUTER_BOUND('',#359,.T.) ;
#404=FACE_OUTER_BOUND('',#399,.T.) ;
#421=FACE_OUTER_BOUND('',#416,.T.) ;
#461=FACE_OUTER_BOUND('',#456,.T.) ;
#478=FACE_OUTER_BOUND('',#473,.T.) ;
#488=FACE_OUTER_BOUND('',#485,.T.) ;
#502=FACE_OUTER_BOUND('',#499,.T.) ;
#511=FACE_OUTER_BOUND('',#508,.T.) ;
#525=FACE_OUTER_BOUND('',#522,.T.) ;
#534=FACE_OUTER_BOUND('',#531,.T.) ;
#543=FACE_OUTER_BOUND('',#540,.T.) ;
#45=UNCERTAINTY_MEASURE_WITH_UNIT(LENGTH_MEASURE(0.005),#41,'distance_accuracy_value','CONFUSED CURVE UNCERTAINTY') ;
#69=LINE('Line',#66,#68) ;
#83=LINE('Line',#80,#82) ;
#126=LINE('Line',#123,#125) ;
#140=LINE('Line',#137,#139) ;
#183=LINE('Line',#180,#182) ;
#197=LINE('Line',#194,#196) ;
#240=LINE('Line',#237,#239) ;
#254=LINE('Line',#251,#253) ;
#288=LINE('Line',#285,#287) ;
#302=LINE('Line',#299,#301) ;
#331=LINE('Line',#328,#330) ;
#345=LINE('Line',#342,#344) ;
#383=LINE('Line',#380,#382) ;
#397=LINE('Line',#394,#396) ;
#440=LINE('Line',#437,#439) ;
#454=LINE('Line',#451,#453) ;
#2=MECHANICAL_CONTEXT(' ',#1,'mechanical') ;
#24=PERSONAL_ADDRESS(' ',' ',' ',' ',' ',' ',' ',' ',' ',' ',' ',' ',(#22),' ') ;
#484=PLANE('Plane',#483) ;
#498=PLANE('Plane',#497) ;
#521=PLANE('Plane',#520) ;
#43=PLANE_ANGLE_MEASURE_WITH_UNIT(PLANE_ANGLE_MEASURE(0.0174532925199),#42) ;
#7=PRODUCT_CATEGORY('part',$) ;
#9=PRODUCT_CATEGORY_RELATIONSHIP(' ',' ',#7,#8) ;
#6=PRODUCT_DEFINITION_FORMATION_WITH_SPECIFIED_SOURCE('',' ',#5,.NOT_KNOWN.) ;
#8=PRODUCT_RELATED_PRODUCT_CATEGORY('detail',$,(#5)) ;
#50=SHAPE_DEFINITION_REPRESENTATION(#40,#49) ;
#62=VERTEX_POINT('',#61) ;
#64=VERTEX_POINT('',#63) ;
#71=VERTEX_POINT('',#70) ;
#78=VERTEX_POINT('',#77) ;
#119=VERTEX_POINT('',#118) ;
#121=VERTEX_POINT('',#120) ;
#128=VERTEX_POINT('',#127) ;
#135=VERTEX_POINT('',#134) ;
#176=VERTEX_POINT('',#175) ;
#178=VERTEX_POINT('',#177) ;
#185=VERTEX_POINT('',#184) ;
#192=VERTEX_POINT('',#191) ;
#233=VERTEX_POINT('',#232) ;
#235=VERTEX_POINT('',#234) ;
#242=VERTEX_POINT('',#241) ;
#249=VERTEX_POINT('',#248) ;
#290=VERTEX_POINT('',#289) ;
#297=VERTEX_POINT('',#296) ;
#333=VERTEX_POINT('',#332) ;
#340=VERTEX_POINT('',#339) ;
#376=VERTEX_POINT('',#375) ;
#378=VERTEX_POINT('',#377) ;
#385=VERTEX_POINT('',#384) ;
#392=VERTEX_POINT('',#391) ;
#433=VERTEX_POINT('',#432) ;
#435=VERTEX_POINT('',#434) ;
#442=VERTEX_POINT('',#441) ;
#449=VERTEX_POINT('',#448) ;
#41=(LENGTH_UNIT()NAMED_UNIT(*)SI_UNIT(.MILLI.,.METRE.)) ;
#42=(NAMED_UNIT(*)PLANE_ANGLE_UNIT()SI_UNIT($,.RADIAN.)) ;
#44=(NAMED_UNIT(*)SI_UNIT($,.STERADIAN.)SOLID_ANGLE_UNIT()) ;
#46=(GEOMETRIC_REPRESENTATION_CONTEXT(3)GLOBAL_UNCERTAINTY_ASSIGNED_CONTEXT((#45))GLOBAL_UNIT_ASSIGNED_CONTEXT((#41,#42,#44))REPRESENTATION_CONTEXT(' ',' ')) ;
ENDSEC;
END-ISO-10303-21;
